ISO-10303-21;
HEADER;
FILE_DESCRIPTION(('CATIA V5 STEP Exchange'),'2;1');

FILE_NAME('C:\\Users\\Astroboy\\Desktop\\RIDIX\\work\\RDRB111.32.stp','2017-03-08T09:00:45+00:00',('none'),('none'),'CATIA Version 5 Release 19 GA (IN-10)','CATIA V5 STEP AP203','none');

FILE_SCHEMA(('CONFIG_CONTROL_DESIGN'));

ENDSEC;
/* file written by CATIA V5R19 */
DATA;
#5=PRODUCT('RDRB111.32','','RITEGNO PER BOCCOLA\X2\000D\X0\\X2\000A\X0\NORMATIVE AUTOMOTIVE\X2\000D\X0\\X2\000A\X0\',(#2)) ;
#1=APPLICATION_CONTEXT('configuration controlled 3D design of mechanical parts and assemblies') ;
#14=PRODUCT_DEFINITION('',' ',#6,#3) ;
#16=SECURITY_CLASSIFICATION(' ',' ',#15) ;
#15=SECURITY_CLASSIFICATION_LEVEL('unclassified') ;
#47=CARTESIAN_POINT(' ',(0.,0.,0.)) ;
#51=CARTESIAN_POINT('Line Origine',(0.,0.,0.)) ;
#55=CARTESIAN_POINT('Limit',(0.,0.,0.)) ;
#56=CARTESIAN_POINT('Limit',(20.,0.,0.)) ;
#63=CARTESIAN_POINT('Line Origine',(0.,0.,0.)) ;
#67=CARTESIAN_POINT('Limit',(0.,0.,0.)) ;
#68=CARTESIAN_POINT('Limit',(0.,20.,0.)) ;
#72=CARTESIAN_POINT('Line Origine',(0.,0.,0.)) ;
#76=CARTESIAN_POINT('Limit',(0.,0.,0.)) ;
#77=CARTESIAN_POINT('Limit',(0.,0.,20.)) ;
#81=CARTESIAN_POINT('Punto.4',(0.,0.,0.)) ;
#83=CARTESIAN_POINT('Axis2P3D Location',(-17.7,-25.,0.)) ;
#88=CARTESIAN_POINT('Axis2P3D Location',(-21.,-25.,0.)) ;
#92=CARTESIAN_POINT('Vertex',(-15.7345046287,-27.8765532316,0.)) ;
#94=CARTESIAN_POINT('Vertex',(-26.2654953713,-22.1234467684,0.)) ;
#97=CARTESIAN_POINT('Axis2P3D Location',(-21.,-25.,0.)) ;
#106=CARTESIAN_POINT('Axis2P3D Location',(-21.,-25.,0.)) ;
#110=CARTESIAN_POINT('Vertex',(-23.8960224542,-23.4178957226,1.7763568394E-015)) ;
#112=CARTESIAN_POINT('Vertex',(-18.1039775458,-26.5821042774,1.7763568394E-015)) ;
#115=CARTESIAN_POINT('Axis2P3D Location',(-21.,-25.,0.)) ;
#125=CARTESIAN_POINT('Axis2P3D Location',(-21.,-25.,6.9)) ;
#130=CARTESIAN_POINT('Axis2P3D Location',(-21.,-25.,-5.)) ;
#134=CARTESIAN_POINT('Vertex',(-23.8960224542,-23.4178957226,-5.)) ;
#136=CARTESIAN_POINT('Vertex',(-18.1039775458,-26.5821042774,-5.)) ;
#139=CARTESIAN_POINT('Line Origine',(-23.8960224542,-23.4178957226,-16.5)) ;
#144=CARTESIAN_POINT('Line Origine',(-18.1039775458,-26.5821042774,-16.5)) ;
#156=CARTESIAN_POINT('Axis2P3D Location',(-21.,-25.,-5.)) ;
#168=CARTESIAN_POINT('Axis2P3D Location',(-5.,10.,0.)) ;
#173=CARTESIAN_POINT('Line Origine',(-5.,39.686269666,1.)) ;
#177=CARTESIAN_POINT('Vertex',(-5.,39.686269666,-5.)) ;
#179=CARTESIAN_POINT('Vertex',(-5.,39.686269666,7.)) ;
#182=CARTESIAN_POINT('Line Origine',(-5.,29.5255931985,7.)) ;
#186=CARTESIAN_POINT('Vertex',(-5.,19.364916731,7.)) ;
#189=CARTESIAN_POINT('Line Origine',(-5.,19.364916731,4.)) ;
#193=CARTESIAN_POINT('Vertex',(-5.,19.364916731,1.)) ;
#196=CARTESIAN_POINT('Line Origine',(-5.,22.1849581156,1.)) ;
#200=CARTESIAN_POINT('Vertex',(-5.,25.0049995001,1.)) ;
#203=CARTESIAN_POINT('Line Origine',(-5.,25.0049995001,-2.)) ;
#207=CARTESIAN_POINT('Vertex',(-5.,25.0049995001,-5.)) ;
#210=CARTESIAN_POINT('Line Origine',(-5.,32.345634583,-5.)) ;
#224=CARTESIAN_POINT('Axis2P3D Location',(0.,0.,0.)) ;
#229=CARTESIAN_POINT('Axis2P3D Location',(0.,0.,-5.)) ;
#233=CARTESIAN_POINT('Vertex',(-5.,-39.686269666,-5.)) ;
#236=CARTESIAN_POINT('Line Origine',(-5.,-39.686269666,1.)) ;
#240=CARTESIAN_POINT('Vertex',(-5.,-39.686269666,7.)) ;
#243=CARTESIAN_POINT('Axis2P3D Location',(0.,0.,7.)) ;
#255=CARTESIAN_POINT('Line Origine',(-5.,-32.345634583,-5.)) ;
#259=CARTESIAN_POINT('Vertex',(-5.,-25.0049995001,-5.)) ;
#262=CARTESIAN_POINT('Line Origine',(-5.,-25.0049995001,-2.)) ;
#266=CARTESIAN_POINT('Vertex',(-5.,-25.0049995001,1.)) ;
#269=CARTESIAN_POINT('Line Origine',(-5.,-22.1849581156,1.)) ;
#273=CARTESIAN_POINT('Vertex',(-5.,-19.364916731,1.)) ;
#276=CARTESIAN_POINT('Line Origine',(-5.,-19.364916731,4.)) ;
#280=CARTESIAN_POINT('Vertex',(-5.,-19.364916731,7.)) ;
#283=CARTESIAN_POINT('Line Origine',(-5.,-29.5255931985,7.)) ;
#297=CARTESIAN_POINT('Axis2P3D Location',(6.67410462833E-015,25.5,1.)) ;
#302=CARTESIAN_POINT('Axis2P3D Location',(0.,3.1305417568E-031,1.)) ;
#307=CARTESIAN_POINT('Axis2P3D Location',(0.,3.1305417568E-031,1.)) ;
#319=CARTESIAN_POINT('Axis2P3D Location',(0.,0.,0.)) ;
#324=CARTESIAN_POINT('Axis2P3D Location',(0.,0.,-5.)) ;
#336=CARTESIAN_POINT('Axis2P3D Location',(0.,0.,0.)) ;
#341=CARTESIAN_POINT('Axis2P3D Location',(0.,0.,7.)) ;
#353=CARTESIAN_POINT('Axis2P3D Location',(-21.,-25.,6.9)) ;
#358=CARTESIAN_POINT('Axis2P3D Location',(-21.,-25.,7.)) ;
#362=CARTESIAN_POINT('Vertex',(-26.2654953713,-22.1234467684,7.)) ;
#364=CARTESIAN_POINT('Vertex',(-15.7345046287,-27.8765532316,7.)) ;
#367=CARTESIAN_POINT('Line Origine',(-15.7345046287,-27.8765532316,3.65500000004)) ;
#372=CARTESIAN_POINT('Line Origine',(-26.2654953713,-22.1234467684,3.65500000004)) ;
#384=CARTESIAN_POINT('Axis2P3D Location',(-21.,-25.,7.)) ;
#396=CARTESIAN_POINT('Axis2P3D Location',(4.89842541529E-015,40.,-5.)) ;
#407=CARTESIAN_POINT('Axis2P3D Location',(-21.,25.,-5.)) ;
#411=CARTESIAN_POINT('Vertex',(-23.8960224542,26.5821042774,-5.)) ;
#413=CARTESIAN_POINT('Vertex',(-18.1039775458,23.4178957226,-5.)) ;
#416=CARTESIAN_POINT('Axis2P3D Location',(-21.,25.,-5.)) ;
#430=CARTESIAN_POINT('Axis2P3D Location',(7.34763812293E-015,20.,7.)) ;
#441=CARTESIAN_POINT('Axis2P3D Location',(-21.,25.,7.)) ;
#445=CARTESIAN_POINT('Vertex',(-26.2654953713,27.8765532316,7.)) ;
#447=CARTESIAN_POINT('Vertex',(-15.7345046287,22.1234467684,7.)) ;
#450=CARTESIAN_POINT('Axis2P3D Location',(-21.,25.,7.)) ;
#464=CARTESIAN_POINT('Axis2P3D Location',(-21.,25.,0.)) ;
#468=CARTESIAN_POINT('Vertex',(-15.7345046287,22.1234467684,0.)) ;
#470=CARTESIAN_POINT('Vertex',(-26.2654953713,27.8765532316,0.)) ;
#473=CARTESIAN_POINT('Axis2P3D Location',(-21.,25.,0.)) ;
#482=CARTESIAN_POINT('Axis2P3D Location',(-21.,25.,0.)) ;
#486=CARTESIAN_POINT('Vertex',(-23.8960224542,26.5821042774,1.7763568394E-015)) ;
#488=CARTESIAN_POINT('Vertex',(-18.1039775458,23.4178957226,1.7763568394E-015)) ;
#491=CARTESIAN_POINT('Axis2P3D Location',(-21.,25.,0.)) ;
#501=CARTESIAN_POINT('Axis2P3D Location',(-21.,25.,6.9)) ;
#506=CARTESIAN_POINT('Line Origine',(-26.2654953713,27.8765532316,3.65500000004)) ;
#511=CARTESIAN_POINT('Line Origine',(-15.7345046287,22.1234467684,3.65500000004)) ;
#530=CARTESIAN_POINT('Axis2P3D Location',(-21.,25.,6.9)) ;
#535=CARTESIAN_POINT('Line Origine',(-23.8960224542,26.5821042774,-16.5)) ;
#540=CARTESIAN_POINT('Line Origine',(-18.1039775458,23.4178957226,-16.5)) ;
#52=DIRECTION('Vector Direction',(1.,0.,0.)) ;
#64=DIRECTION('Vector Direction',(0.,1.,0.)) ;
#73=DIRECTION('Vector Direction',(0.,0.,1.)) ;
#84=DIRECTION('Axis2P3D Direction',(0.,0.,-1.)) ;
#85=DIRECTION('Axis2P3D XDirection',(1.,0.,0.)) ;
#89=DIRECTION('Axis2P3D Direction',(0.,0.,-1.)) ;
#98=DIRECTION('Axis2P3D Direction',(0.,0.,-1.)) ;
#107=DIRECTION('Axis2P3D Direction',(0.,0.,-1.)) ;
#116=DIRECTION('Axis2P3D Direction',(0.,0.,-1.)) ;
#126=DIRECTION('Axis2P3D Direction',(0.,-0.,-1.)) ;
#127=DIRECTION('Axis2P3D XDirection',(0.87758256189,-0.479425538604,0.)) ;
#131=DIRECTION('Axis2P3D Direction',(0.,-0.,-1.)) ;
#140=DIRECTION('Vector Direction',(0.,0.,-1.)) ;
#145=DIRECTION('Vector Direction',(0.,0.,-1.)) ;
#157=DIRECTION('Axis2P3D Direction',(0.,-0.,-1.)) ;
#169=DIRECTION('Axis2P3D Direction',(1.,0.,0.)) ;
#170=DIRECTION('Axis2P3D XDirection',(0.,1.,0.)) ;
#174=DIRECTION('Vector Direction',(0.,0.,1.)) ;
#183=DIRECTION('Vector Direction',(0.,1.,0.)) ;
#190=DIRECTION('Vector Direction',(0.,0.,1.)) ;
#197=DIRECTION('Vector Direction',(0.,1.,0.)) ;
#204=DIRECTION('Vector Direction',(0.,0.,1.)) ;
#211=DIRECTION('Vector Direction',(0.,1.,0.)) ;
#225=DIRECTION('Axis2P3D Direction',(0.,-0.,1.)) ;
#226=DIRECTION('Axis2P3D XDirection',(6.12303176911E-017,1.,0.)) ;
#230=DIRECTION('Axis2P3D Direction',(0.,-0.,1.)) ;
#237=DIRECTION('Vector Direction',(0.,0.,1.)) ;
#244=DIRECTION('Axis2P3D Direction',(0.,-0.,1.)) ;
#256=DIRECTION('Vector Direction',(0.,1.,0.)) ;
#263=DIRECTION('Vector Direction',(0.,0.,1.)) ;
#270=DIRECTION('Vector Direction',(0.,1.,0.)) ;
#277=DIRECTION('Vector Direction',(0.,0.,1.)) ;
#284=DIRECTION('Vector Direction',(0.,1.,0.)) ;
#298=DIRECTION('Axis2P3D Direction',(0.,-0.,1.)) ;
#299=DIRECTION('Axis2P3D XDirection',(6.12303176911E-017,1.,0.)) ;
#303=DIRECTION('Axis2P3D Direction',(0.,-0.,1.)) ;
#308=DIRECTION('Axis2P3D Direction',(0.,-0.,1.)) ;
#320=DIRECTION('Axis2P3D Direction',(0.,-0.,1.)) ;
#321=DIRECTION('Axis2P3D XDirection',(6.12303176911E-017,1.,0.)) ;
#325=DIRECTION('Axis2P3D Direction',(0.,-0.,1.)) ;
#337=DIRECTION('Axis2P3D Direction',(0.,-0.,1.)) ;
#338=DIRECTION('Axis2P3D XDirection',(6.12303176911E-017,1.,0.)) ;
#342=DIRECTION('Axis2P3D Direction',(0.,-0.,1.)) ;
#354=DIRECTION('Axis2P3D Direction',(0.,-0.,-1.)) ;
#355=DIRECTION('Axis2P3D XDirection',(0.87758256189,-0.479425538604,0.)) ;
#359=DIRECTION('Axis2P3D Direction',(0.,-0.,-1.)) ;
#368=DIRECTION('Vector Direction',(0.,0.,-1.)) ;
#373=DIRECTION('Vector Direction',(0.,0.,-1.)) ;
#385=DIRECTION('Axis2P3D Direction',(0.,-0.,-1.)) ;
#397=DIRECTION('Axis2P3D Direction',(0.,-0.,1.)) ;
#398=DIRECTION('Axis2P3D XDirection',(6.12303176911E-017,1.,0.)) ;
#408=DIRECTION('Axis2P3D Direction',(0.,-0.,1.)) ;
#417=DIRECTION('Axis2P3D Direction',(0.,-0.,1.)) ;
#431=DIRECTION('Axis2P3D Direction',(0.,-0.,1.)) ;
#432=DIRECTION('Axis2P3D XDirection',(6.12303176911E-017,1.,0.)) ;
#442=DIRECTION('Axis2P3D Direction',(0.,-0.,1.)) ;
#451=DIRECTION('Axis2P3D Direction',(0.,-0.,1.)) ;
#465=DIRECTION('Axis2P3D Direction',(0.,0.,-1.)) ;
#474=DIRECTION('Axis2P3D Direction',(0.,0.,-1.)) ;
#483=DIRECTION('Axis2P3D Direction',(0.,0.,-1.)) ;
#492=DIRECTION('Axis2P3D Direction',(0.,0.,-1.)) ;
#502=DIRECTION('Axis2P3D Direction',(0.,0.,-1.)) ;
#503=DIRECTION('Axis2P3D XDirection',(0.87758256189,-0.479425538604,0.)) ;
#507=DIRECTION('Vector Direction',(0.,0.,-1.)) ;
#512=DIRECTION('Vector Direction',(0.,0.,-1.)) ;
#531=DIRECTION('Axis2P3D Direction',(0.,0.,-1.)) ;
#532=DIRECTION('Axis2P3D XDirection',(0.87758256189,-0.479425538604,0.)) ;
#536=DIRECTION('Vector Direction',(0.,0.,-1.)) ;
#541=DIRECTION('Vector Direction',(0.,0.,-1.)) ;
#48=AXIS2_PLACEMENT_3D(' ',#47,$,$) ;
#86=AXIS2_PLACEMENT_3D('Plane Axis2P3D',#83,#84,#85) ;
#90=AXIS2_PLACEMENT_3D('Circle Axis2P3D',#88,#89,$) ;
#99=AXIS2_PLACEMENT_3D('Circle Axis2P3D',#97,#98,$) ;
#108=AXIS2_PLACEMENT_3D('Circle Axis2P3D',#106,#107,$) ;
#117=AXIS2_PLACEMENT_3D('Circle Axis2P3D',#115,#116,$) ;
#128=AXIS2_PLACEMENT_3D('Cylinder Axis2P3D',#125,#126,#127) ;
#132=AXIS2_PLACEMENT_3D('Circle Axis2P3D',#130,#131,$) ;
#158=AXIS2_PLACEMENT_3D('Circle Axis2P3D',#156,#157,$) ;
#171=AXIS2_PLACEMENT_3D('Plane Axis2P3D',#168,#169,#170) ;
#227=AXIS2_PLACEMENT_3D('Cylinder Axis2P3D',#224,#225,#226) ;
#231=AXIS2_PLACEMENT_3D('Circle Axis2P3D',#229,#230,$) ;
#245=AXIS2_PLACEMENT_3D('Circle Axis2P3D',#243,#244,$) ;
#300=AXIS2_PLACEMENT_3D('Plane Axis2P3D',#297,#298,#299) ;
#304=AXIS2_PLACEMENT_3D('Circle Axis2P3D',#302,#303,$) ;
#309=AXIS2_PLACEMENT_3D('Circle Axis2P3D',#307,#308,$) ;
#322=AXIS2_PLACEMENT_3D('Cylinder Axis2P3D',#319,#320,#321) ;
#326=AXIS2_PLACEMENT_3D('Circle Axis2P3D',#324,#325,$) ;
#339=AXIS2_PLACEMENT_3D('Cylinder Axis2P3D',#336,#337,#338) ;
#343=AXIS2_PLACEMENT_3D('Circle Axis2P3D',#341,#342,$) ;
#356=AXIS2_PLACEMENT_3D('Cylinder Axis2P3D',#353,#354,#355) ;
#360=AXIS2_PLACEMENT_3D('Circle Axis2P3D',#358,#359,$) ;
#386=AXIS2_PLACEMENT_3D('Circle Axis2P3D',#384,#385,$) ;
#399=AXIS2_PLACEMENT_3D('Plane Axis2P3D',#396,#397,#398) ;
#409=AXIS2_PLACEMENT_3D('Circle Axis2P3D',#407,#408,$) ;
#418=AXIS2_PLACEMENT_3D('Circle Axis2P3D',#416,#417,$) ;
#433=AXIS2_PLACEMENT_3D('Plane Axis2P3D',#430,#431,#432) ;
#443=AXIS2_PLACEMENT_3D('Circle Axis2P3D',#441,#442,$) ;
#452=AXIS2_PLACEMENT_3D('Circle Axis2P3D',#450,#451,$) ;
#466=AXIS2_PLACEMENT_3D('Circle Axis2P3D',#464,#465,$) ;
#475=AXIS2_PLACEMENT_3D('Circle Axis2P3D',#473,#474,$) ;
#484=AXIS2_PLACEMENT_3D('Circle Axis2P3D',#482,#483,$) ;
#493=AXIS2_PLACEMENT_3D('Circle Axis2P3D',#491,#492,$) ;
#504=AXIS2_PLACEMENT_3D('Cylinder Axis2P3D',#501,#502,#503) ;
#533=AXIS2_PLACEMENT_3D('Cylinder Axis2P3D',#530,#531,#532) ;
#40=PRODUCT_DEFINITION_SHAPE(' ',' ',#14) ;
#59=COMPOSITE_CURVE('Linea.1',(#58),.U.) ;
#71=COMPOSITE_CURVE('Linea.2',(#70),.U.) ;
#80=COMPOSITE_CURVE('Linea.3',(#79),.U.) ;
#58=COMPOSITE_CURVE_SEGMENT(.DISCONTINUOUS.,.T.,#57) ;
#70=COMPOSITE_CURVE_SEGMENT(.DISCONTINUOUS.,.T.,#69) ;
#79=COMPOSITE_CURVE_SEGMENT(.DISCONTINUOUS.,.T.,#78) ;
#31=APPROVAL_PERSON_ORGANIZATION(#25,#21,#19) ;
#25=PERSON_AND_ORGANIZATION(#22,#23) ;
#22=PERSON(' ',' ',' ',$,$,$) ;
#23=ORGANIZATION(' ',' ',' ') ;
#21=APPROVAL(#20,' ') ;
#20=APPROVAL_STATUS('not_yet_approved') ;
#19=APPROVAL_ROLE('APPROVER') ;
#13=DATE_AND_TIME(#11,#12) ;
#12=LOCAL_TIME(10,0,45.,#10) ;
#10=COORDINATED_UNIVERSAL_TIME_OFFSET(0,0,.AHEAD.) ;
#103=ORIENTED_EDGE('',*,*,#96,.F.) ;
#104=ORIENTED_EDGE('',*,*,#101,.F.) ;
#121=ORIENTED_EDGE('',*,*,#114,.T.) ;
#122=ORIENTED_EDGE('',*,*,#119,.T.) ;
#150=ORIENTED_EDGE('',*,*,#138,.F.) ;
#151=ORIENTED_EDGE('',*,*,#143,.T.) ;
#152=ORIENTED_EDGE('',*,*,#119,.F.) ;
#153=ORIENTED_EDGE('',*,*,#148,.F.) ;
#162=ORIENTED_EDGE('',*,*,#160,.F.) ;
#163=ORIENTED_EDGE('',*,*,#148,.T.) ;
#164=ORIENTED_EDGE('',*,*,#114,.F.) ;
#165=ORIENTED_EDGE('',*,*,#143,.F.) ;
#216=ORIENTED_EDGE('',*,*,#181,.T.) ;
#217=ORIENTED_EDGE('',*,*,#188,.F.) ;
#218=ORIENTED_EDGE('',*,*,#195,.F.) ;
#219=ORIENTED_EDGE('',*,*,#202,.T.) ;
#220=ORIENTED_EDGE('',*,*,#209,.F.) ;
#221=ORIENTED_EDGE('',*,*,#214,.T.) ;
#249=ORIENTED_EDGE('',*,*,#181,.F.) ;
#250=ORIENTED_EDGE('',*,*,#235,.T.) ;
#251=ORIENTED_EDGE('',*,*,#242,.T.) ;
#252=ORIENTED_EDGE('',*,*,#247,.F.) ;
#289=ORIENTED_EDGE('',*,*,#261,.T.) ;
#290=ORIENTED_EDGE('',*,*,#268,.T.) ;
#291=ORIENTED_EDGE('',*,*,#275,.T.) ;
#292=ORIENTED_EDGE('',*,*,#282,.T.) ;
#293=ORIENTED_EDGE('',*,*,#287,.F.) ;
#294=ORIENTED_EDGE('',*,*,#242,.F.) ;
#313=ORIENTED_EDGE('',*,*,#306,.T.) ;
#314=ORIENTED_EDGE('',*,*,#275,.F.) ;
#315=ORIENTED_EDGE('',*,*,#311,.F.) ;
#316=ORIENTED_EDGE('',*,*,#202,.F.) ;
#330=ORIENTED_EDGE('',*,*,#311,.T.) ;
#331=ORIENTED_EDGE('',*,*,#268,.F.) ;
#332=ORIENTED_EDGE('',*,*,#328,.F.) ;
#333=ORIENTED_EDGE('',*,*,#209,.T.) ;
#347=ORIENTED_EDGE('',*,*,#345,.T.) ;
#348=ORIENTED_EDGE('',*,*,#282,.F.) ;
#349=ORIENTED_EDGE('',*,*,#306,.F.) ;
#350=ORIENTED_EDGE('',*,*,#195,.T.) ;
#378=ORIENTED_EDGE('',*,*,#366,.T.) ;
#379=ORIENTED_EDGE('',*,*,#371,.F.) ;
#380=ORIENTED_EDGE('',*,*,#96,.T.) ;
#381=ORIENTED_EDGE('',*,*,#376,.T.) ;
#390=ORIENTED_EDGE('',*,*,#388,.T.) ;
#391=ORIENTED_EDGE('',*,*,#376,.F.) ;
#392=ORIENTED_EDGE('',*,*,#101,.T.) ;
#393=ORIENTED_EDGE('',*,*,#371,.T.) ;
#402=ORIENTED_EDGE('',*,*,#328,.T.) ;
#403=ORIENTED_EDGE('',*,*,#261,.F.) ;
#404=ORIENTED_EDGE('',*,*,#235,.F.) ;
#405=ORIENTED_EDGE('',*,*,#214,.F.) ;
#422=ORIENTED_EDGE('',*,*,#415,.T.) ;
#423=ORIENTED_EDGE('',*,*,#420,.T.) ;
#426=ORIENTED_EDGE('',*,*,#160,.T.) ;
#427=ORIENTED_EDGE('',*,*,#138,.T.) ;
#436=ORIENTED_EDGE('',*,*,#188,.T.) ;
#437=ORIENTED_EDGE('',*,*,#247,.T.) ;
#438=ORIENTED_EDGE('',*,*,#287,.T.) ;
#439=ORIENTED_EDGE('',*,*,#345,.F.) ;
#456=ORIENTED_EDGE('',*,*,#449,.F.) ;
#457=ORIENTED_EDGE('',*,*,#454,.F.) ;
#460=ORIENTED_EDGE('',*,*,#366,.F.) ;
#461=ORIENTED_EDGE('',*,*,#388,.F.) ;
#479=ORIENTED_EDGE('',*,*,#472,.F.) ;
#480=ORIENTED_EDGE('',*,*,#477,.F.) ;
#497=ORIENTED_EDGE('',*,*,#490,.T.) ;
#498=ORIENTED_EDGE('',*,*,#495,.T.) ;
#517=ORIENTED_EDGE('',*,*,#454,.T.) ;
#518=ORIENTED_EDGE('',*,*,#510,.F.) ;
#519=ORIENTED_EDGE('',*,*,#477,.T.) ;
#520=ORIENTED_EDGE('',*,*,#515,.T.) ;
#524=ORIENTED_EDGE('',*,*,#449,.T.) ;
#525=ORIENTED_EDGE('',*,*,#515,.F.) ;
#526=ORIENTED_EDGE('',*,*,#472,.T.) ;
#527=ORIENTED_EDGE('',*,*,#510,.T.) ;
#546=ORIENTED_EDGE('',*,*,#415,.F.) ;
#547=ORIENTED_EDGE('',*,*,#539,.T.) ;
#548=ORIENTED_EDGE('',*,*,#495,.F.) ;
#549=ORIENTED_EDGE('',*,*,#544,.F.) ;
#553=ORIENTED_EDGE('',*,*,#420,.F.) ;
#554=ORIENTED_EDGE('',*,*,#544,.T.) ;
#555=ORIENTED_EDGE('',*,*,#490,.F.) ;
#556=ORIENTED_EDGE('',*,*,#539,.F.) ;
#123=FACE_BOUND('',#120,.T.) ;
#424=FACE_BOUND('',#421,.T.) ;
#428=FACE_BOUND('',#425,.T.) ;
#458=FACE_BOUND('',#455,.T.) ;
#462=FACE_BOUND('',#459,.T.) ;
#499=FACE_BOUND('',#496,.T.) ;
#82=CLOSED_SHELL('Closed Shell',(#124,#155,#167,#223,#254,#296,#318,#335,#352,#383,#395,#429,#463,#500,#522,#529,#551,#558)) ;
#53=VECTOR('Line Direction',#52,1.) ;
#65=VECTOR('Line Direction',#64,1.) ;
#74=VECTOR('Line Direction',#73,1.) ;
#141=VECTOR('Line Direction',#140,1.) ;
#146=VECTOR('Line Direction',#145,1.) ;
#175=VECTOR('Line Direction',#174,1.) ;
#184=VECTOR('Line Direction',#183,1.) ;
#191=VECTOR('Line Direction',#190,1.) ;
#198=VECTOR('Line Direction',#197,1.) ;
#205=VECTOR('Line Direction',#204,1.) ;
#212=VECTOR('Line Direction',#211,1.) ;
#238=VECTOR('Line Direction',#237,1.) ;
#257=VECTOR('Line Direction',#256,1.) ;
#264=VECTOR('Line Direction',#263,1.) ;
#271=VECTOR('Line Direction',#270,1.) ;
#278=VECTOR('Line Direction',#277,1.) ;
#285=VECTOR('Line Direction',#284,1.) ;
#369=VECTOR('Line Direction',#368,1.) ;
#374=VECTOR('Line Direction',#373,1.) ;
#508=VECTOR('Line Direction',#507,1.) ;
#513=VECTOR('Line Direction',#512,1.) ;
#537=VECTOR('Line Direction',#536,1.) ;
#542=VECTOR('Line Direction',#541,1.) ;
#560=ADVANCED_BREP_SHAPE_REPRESENTATION('NONE',(#559),#46) ;
#49=SHAPE_REPRESENTATION(' ',(#48),#46) ;
#124=ADVANCED_FACE('PartBody',(#105,#123),#87,.F.) ;
#155=ADVANCED_FACE('PartBody',(#154),#129,.F.) ;
#167=ADVANCED_FACE('PartBody',(#166),#129,.F.) ;
#223=ADVANCED_FACE('PartBody',(#222),#172,.T.) ;
#254=ADVANCED_FACE('PartBody',(#253),#228,.T.) ;
#296=ADVANCED_FACE('PartBody',(#295),#172,.T.) ;
#318=ADVANCED_FACE('PartBody',(#317),#301,.F.) ;
#335=ADVANCED_FACE('PartBody',(#334),#323,.F.) ;
#352=ADVANCED_FACE('PartBody',(#351),#340,.F.) ;
#383=ADVANCED_FACE('PartBody',(#382),#357,.F.) ;
#395=ADVANCED_FACE('PartBody',(#394),#357,.F.) ;
#429=ADVANCED_FACE('PartBody',(#406,#424,#428),#400,.F.) ;
#463=ADVANCED_FACE('PartBody',(#440,#458,#462),#434,.T.) ;
#500=ADVANCED_FACE('PartBody',(#481,#499),#87,.F.) ;
#522=ADVANCED_FACE('PartBody',(#521),#505,.F.) ;
#529=ADVANCED_FACE('PartBody',(#528),#505,.F.) ;
#551=ADVANCED_FACE('PartBody',(#550),#534,.F.) ;
#558=ADVANCED_FACE('PartBody',(#557),#534,.F.) ;
#4=APPLICATION_PROTOCOL_DEFINITION('international standard','config_control_design',1994,#1) ;
#32=APPROVAL_DATE_TIME(#13,#21) ;
#559=MANIFOLD_SOLID_BREP('PartBody',#82) ;
#11=CALENDAR_DATE(2017,8,3) ;
#30=CC_DESIGN_APPROVAL(#21,(#16,#6,#14)) ;
#18=CC_DESIGN_DATE_AND_TIME_ASSIGNMENT(#13,#17,(#16)) ;
#29=CC_DESIGN_DATE_AND_TIME_ASSIGNMENT(#13,#28,(#14)) ;
#17=DATE_TIME_ROLE('classification_date') ;
#28=DATE_TIME_ROLE('creation_date') ;
#27=CC_DESIGN_PERSON_AND_ORGANIZATION_ASSIGNMENT(#25,#26,(#16)) ;
#33=CC_DESIGN_PERSON_AND_ORGANIZATION_ASSIGNMENT(#25,#34,(#6)) ;
#35=CC_DESIGN_PERSON_AND_ORGANIZATION_ASSIGNMENT(#25,#36,(#6,#14)) ;
#37=CC_DESIGN_PERSON_AND_ORGANIZATION_ASSIGNMENT(#25,#38,(#5)) ;
#26=PERSON_AND_ORGANIZATION_ROLE('classification_officer') ;
#34=PERSON_AND_ORGANIZATION_ROLE('design_supplier') ;
#36=PERSON_AND_ORGANIZATION_ROLE('creator') ;
#38=PERSON_AND_ORGANIZATION_ROLE('design_owner') ;
#39=CC_DESIGN_SECURITY_CLASSIFICATION(#16,(#6)) ;
#91=CIRCLE('generated circle',#90,6.) ;
#100=CIRCLE('generated circle',#99,6.) ;
#109=CIRCLE('generated circle',#108,3.3) ;
#118=CIRCLE('generated circle',#117,3.3) ;
#133=CIRCLE('generated circle',#132,3.3) ;
#159=CIRCLE('generated circle',#158,3.3) ;
#232=CIRCLE('generated circle',#231,40.) ;
#246=CIRCLE('generated circle',#245,40.) ;
#305=CIRCLE('generated circle',#304,20.) ;
#310=CIRCLE('generated circle',#309,25.5) ;
#327=CIRCLE('generated circle',#326,25.5) ;
#344=CIRCLE('generated circle',#343,20.) ;
#361=CIRCLE('generated circle',#360,6.) ;
#387=CIRCLE('generated circle',#386,6.) ;
#410=CIRCLE('generated circle',#409,3.3) ;
#419=CIRCLE('generated circle',#418,3.3) ;
#444=CIRCLE('generated circle',#443,6.) ;
#453=CIRCLE('generated circle',#452,6.) ;
#467=CIRCLE('generated circle',#466,6.) ;
#476=CIRCLE('generated circle',#475,6.) ;
#485=CIRCLE('generated circle',#484,3.3) ;
#494=CIRCLE('generated circle',#493,3.3) ;
#62=SHAPE_REPRESENTATION_RELATIONSHIP(' ',' ',#49,#60) ;
#561=SHAPE_REPRESENTATION_RELATIONSHIP(' ',' ',#49,#560) ;
#129=CYLINDRICAL_SURFACE('generated cylinder',#128,3.3) ;
#228=CYLINDRICAL_SURFACE('generated cylinder',#227,40.) ;
#323=CYLINDRICAL_SURFACE('generated cylinder',#322,25.5) ;
#340=CYLINDRICAL_SURFACE('generated cylinder',#339,20.) ;
#357=CYLINDRICAL_SURFACE('generated cylinder',#356,6.) ;
#505=CYLINDRICAL_SURFACE('generated cylinder',#504,6.) ;
#534=CYLINDRICAL_SURFACE('generated cylinder',#533,3.3) ;
#3=DESIGN_CONTEXT(' ',#1,'design') ;
#96=EDGE_CURVE('',#93,#95,#91,.T.) ;
#101=EDGE_CURVE('',#95,#93,#100,.T.) ;
#114=EDGE_CURVE('',#111,#113,#109,.T.) ;
#119=EDGE_CURVE('',#113,#111,#118,.T.) ;
#138=EDGE_CURVE('',#135,#137,#133,.F.) ;
#143=EDGE_CURVE('',#135,#111,#142,.F.) ;
#148=EDGE_CURVE('',#137,#113,#147,.F.) ;
#160=EDGE_CURVE('',#137,#135,#159,.F.) ;
#181=EDGE_CURVE('',#178,#180,#176,.T.) ;
#188=EDGE_CURVE('',#187,#180,#185,.T.) ;
#195=EDGE_CURVE('',#194,#187,#192,.T.) ;
#202=EDGE_CURVE('',#194,#201,#199,.T.) ;
#209=EDGE_CURVE('',#208,#201,#206,.T.) ;
#214=EDGE_CURVE('',#208,#178,#213,.T.) ;
#235=EDGE_CURVE('',#178,#234,#232,.T.) ;
#242=EDGE_CURVE('',#234,#241,#239,.T.) ;
#247=EDGE_CURVE('',#180,#241,#246,.T.) ;
#261=EDGE_CURVE('',#234,#260,#258,.T.) ;
#268=EDGE_CURVE('',#260,#267,#265,.T.) ;
#275=EDGE_CURVE('',#267,#274,#272,.T.) ;
#282=EDGE_CURVE('',#274,#281,#279,.T.) ;
#287=EDGE_CURVE('',#241,#281,#286,.T.) ;
#306=EDGE_CURVE('',#194,#274,#305,.T.) ;
#311=EDGE_CURVE('',#201,#267,#310,.T.) ;
#328=EDGE_CURVE('',#208,#260,#327,.T.) ;
#345=EDGE_CURVE('',#187,#281,#344,.T.) ;
#366=EDGE_CURVE('',#363,#365,#361,.F.) ;
#371=EDGE_CURVE('',#93,#365,#370,.F.) ;
#376=EDGE_CURVE('',#95,#363,#375,.F.) ;
#388=EDGE_CURVE('',#365,#363,#387,.F.) ;
#415=EDGE_CURVE('',#412,#414,#410,.T.) ;
#420=EDGE_CURVE('',#414,#412,#419,.T.) ;
#449=EDGE_CURVE('',#446,#448,#444,.T.) ;
#454=EDGE_CURVE('',#448,#446,#453,.T.) ;
#472=EDGE_CURVE('',#469,#471,#467,.T.) ;
#477=EDGE_CURVE('',#471,#469,#476,.T.) ;
#490=EDGE_CURVE('',#487,#489,#485,.T.) ;
#495=EDGE_CURVE('',#489,#487,#494,.T.) ;
#510=EDGE_CURVE('',#471,#446,#509,.F.) ;
#515=EDGE_CURVE('',#469,#448,#514,.F.) ;
#539=EDGE_CURVE('',#412,#487,#538,.F.) ;
#544=EDGE_CURVE('',#414,#489,#543,.F.) ;
#102=EDGE_LOOP('',(#103,#104)) ;
#120=EDGE_LOOP('',(#121,#122)) ;
#149=EDGE_LOOP('',(#150,#151,#152,#153)) ;
#161=EDGE_LOOP('',(#162,#163,#164,#165)) ;
#215=EDGE_LOOP('',(#216,#217,#218,#219,#220,#221)) ;
#248=EDGE_LOOP('',(#249,#250,#251,#252)) ;
#288=EDGE_LOOP('',(#289,#290,#291,#292,#293,#294)) ;
#312=EDGE_LOOP('',(#313,#314,#315,#316)) ;
#329=EDGE_LOOP('',(#330,#331,#332,#333)) ;
#346=EDGE_LOOP('',(#347,#348,#349,#350)) ;
#377=EDGE_LOOP('',(#378,#379,#380,#381)) ;
#389=EDGE_LOOP('',(#390,#391,#392,#393)) ;
#401=EDGE_LOOP('',(#402,#403,#404,#405)) ;
#421=EDGE_LOOP('',(#422,#423)) ;
#425=EDGE_LOOP('',(#426,#427)) ;
#435=EDGE_LOOP('',(#436,#437,#438,#439)) ;
#455=EDGE_LOOP('',(#456,#457)) ;
#459=EDGE_LOOP('',(#460,#461)) ;
#478=EDGE_LOOP('',(#479,#480)) ;
#496=EDGE_LOOP('',(#497,#498)) ;
#516=EDGE_LOOP('',(#517,#518,#519,#520)) ;
#523=EDGE_LOOP('',(#524,#525,#526,#527)) ;
#545=EDGE_LOOP('',(#546,#547,#548,#549)) ;
#552=EDGE_LOOP('',(#553,#554,#555,#556)) ;
#105=FACE_OUTER_BOUND('',#102,.T.) ;
#154=FACE_OUTER_BOUND('',#149,.T.) ;
#166=FACE_OUTER_BOUND('',#161,.T.) ;
#222=FACE_OUTER_BOUND('',#215,.T.) ;
#253=FACE_OUTER_BOUND('',#248,.T.) ;
#295=FACE_OUTER_BOUND('',#288,.T.) ;
#317=FACE_OUTER_BOUND('',#312,.T.) ;
#334=FACE_OUTER_BOUND('',#329,.T.) ;
#351=FACE_OUTER_BOUND('',#346,.T.) ;
#382=FACE_OUTER_BOUND('',#377,.T.) ;
#394=FACE_OUTER_BOUND('',#389,.T.) ;
#406=FACE_OUTER_BOUND('',#401,.T.) ;
#440=FACE_OUTER_BOUND('',#435,.T.) ;
#481=FACE_OUTER_BOUND('',#478,.T.) ;
#521=FACE_OUTER_BOUND('',#516,.T.) ;
#528=FACE_OUTER_BOUND('',#523,.T.) ;
#550=FACE_OUTER_BOUND('',#545,.T.) ;
#557=FACE_OUTER_BOUND('',#552,.T.) ;
#61=GEOMETRIC_SET('NONE',(#59,#71,#80,#81)) ;
#60=GEOMETRICALLY_BOUNDED_SURFACE_SHAPE_REPRESENTATION('NONE',(#61),#46) ;
#45=UNCERTAINTY_MEASURE_WITH_UNIT(LENGTH_MEASURE(0.005),#41,'distance_accuracy_value','CONFUSED CURVE UNCERTAINTY') ;
#54=LINE('Line',#51,#53) ;
#66=LINE('Line',#63,#65) ;
#75=LINE('Line',#72,#74) ;
#142=LINE('Line',#139,#141) ;
#147=LINE('Line',#144,#146) ;
#176=LINE('Line',#173,#175) ;
#185=LINE('Line',#182,#184) ;
#192=LINE('Line',#189,#191) ;
#199=LINE('Line',#196,#198) ;
#206=LINE('Line',#203,#205) ;
#213=LINE('Line',#210,#212) ;
#239=LINE('Line',#236,#238) ;
#258=LINE('Line',#255,#257) ;
#265=LINE('Line',#262,#264) ;
#272=LINE('Line',#269,#271) ;
#279=LINE('Line',#276,#278) ;
#286=LINE('Line',#283,#285) ;
#370=LINE('Line',#367,#369) ;
#375=LINE('Line',#372,#374) ;
#509=LINE('Line',#506,#508) ;
#514=LINE('Line',#511,#513) ;
#538=LINE('Line',#535,#537) ;
#543=LINE('Line',#540,#542) ;
#2=MECHANICAL_CONTEXT(' ',#1,'mechanical') ;
#24=PERSONAL_ADDRESS(' ',' ',' ',' ',' ',' ',' ',' ',' ',' ',' ',' ',(#22),' ') ;
#87=PLANE('Plane',#86) ;
#172=PLANE('Plane',#171) ;
#301=PLANE('Plane',#300) ;
#400=PLANE('Plane',#399) ;
#434=PLANE('Plane',#433) ;
#43=PLANE_ANGLE_MEASURE_WITH_UNIT(PLANE_ANGLE_MEASURE(0.0174532925199),#42) ;
#7=PRODUCT_CATEGORY('part',$) ;
#9=PRODUCT_CATEGORY_RELATIONSHIP(' ',' ',#7,#8) ;
#6=PRODUCT_DEFINITION_FORMATION_WITH_SPECIFIED_SOURCE('',' ',#5,.NOT_KNOWN.) ;
#8=PRODUCT_RELATED_PRODUCT_CATEGORY('detail',$,(#5)) ;
#50=SHAPE_DEFINITION_REPRESENTATION(#40,#49) ;
#57=TRIMMED_CURVE('',#54,(#55),(#56),.T.,.CARTESIAN.) ;
#69=TRIMMED_CURVE('',#66,(#67),(#68),.T.,.CARTESIAN.) ;
#78=TRIMMED_CURVE('',#75,(#76),(#77),.T.,.CARTESIAN.) ;
#93=VERTEX_POINT('',#92) ;
#95=VERTEX_POINT('',#94) ;
#111=VERTEX_POINT('',#110) ;
#113=VERTEX_POINT('',#112) ;
#135=VERTEX_POINT('',#134) ;
#137=VERTEX_POINT('',#136) ;
#178=VERTEX_POINT('',#177) ;
#180=VERTEX_POINT('',#179) ;
#187=VERTEX_POINT('',#186) ;
#194=VERTEX_POINT('',#193) ;
#201=VERTEX_POINT('',#200) ;
#208=VERTEX_POINT('',#207) ;
#234=VERTEX_POINT('',#233) ;
#241=VERTEX_POINT('',#240) ;
#260=VERTEX_POINT('',#259) ;
#267=VERTEX_POINT('',#266) ;
#274=VERTEX_POINT('',#273) ;
#281=VERTEX_POINT('',#280) ;
#363=VERTEX_POINT('',#362) ;
#365=VERTEX_POINT('',#364) ;
#412=VERTEX_POINT('',#411) ;
#414=VERTEX_POINT('',#413) ;
#446=VERTEX_POINT('',#445) ;
#448=VERTEX_POINT('',#447) ;
#469=VERTEX_POINT('',#468) ;
#471=VERTEX_POINT('',#470) ;
#487=VERTEX_POINT('',#486) ;
#489=VERTEX_POINT('',#488) ;
#41=(LENGTH_UNIT()NAMED_UNIT(*)SI_UNIT(.MILLI.,.METRE.)) ;
#42=(NAMED_UNIT(*)PLANE_ANGLE_UNIT()SI_UNIT($,.RADIAN.)) ;
#44=(NAMED_UNIT(*)SI_UNIT($,.STERADIAN.)SOLID_ANGLE_UNIT()) ;
#46=(GEOMETRIC_REPRESENTATION_CONTEXT(3)GLOBAL_UNCERTAINTY_ASSIGNED_CONTEXT((#45))GLOBAL_UNIT_ASSIGNED_CONTEXT((#41,#42,#44))REPRESENTATION_CONTEXT(' ',' ')) ;
ENDSEC;
END-ISO-10303-21;
